ISO-10303-21;
HEADER;
FILE_DESCRIPTION (( 'STEP AP203' ),
    '1' );
FILE_NAME ('Q-OZHWP-R2-10-248-M.STEP',
    '2020-12-22T09:11:16',
    ( '' ),
    ( '' ),
    'SwSTEP 2.0',
    'SolidWorks 2020',
    '' );
FILE_SCHEMA (( 'CONFIG_CONTROL_DESIGN' ));
ENDSEC;

DATA;
#1 = EDGE_CURVE ( 'NONE', #265, #34, #229, .T. ) ;
#2 = PERSON_AND_ORGANIZATION ( #254, #285 ) ;
#3 = APPROVAL_PERSON_ORGANIZATION ( #78, #212, #54 ) ;
#4 = PERSON_AND_ORGANIZATION_ROLE ( 'creator' ) ;
#5 = MANIFOLD_SOLID_BREP ( 'Ðý×', #268 ) ;
#6 = DATE_AND_TIME ( #235, #17 ) ;
#7 = VERTEX_POINT ( 'NONE', #35 ) ;
#8 = CIRCLE ( 'NONE', #198, 5.000000000000000888 ) ;
#9 = CARTESIAN_POINT ( 'NONE',  ( -1.250000000000000222, 0.000000000000000000, 0.000000000000000000 ) ) ;
#10 = ORIENTED_EDGE ( 'NONE', *, *, #221, .T. ) ;
#11 = FACE_OUTER_BOUND ( 'NONE', #294, .T. ) ;
#12 = ADVANCED_FACE ( 'NONE', ( #275 ), #114, .F. ) ;
#13 = ORIENTED_EDGE ( 'NONE', *, *, #1, .F. ) ;
#14 = CARTESIAN_POINT ( 'NONE',  ( 1.250000000000000444, 0.000000000000000000, 0.000000000000000000 ) ) ;
#15 = ORIENTED_EDGE ( 'NONE', *, *, #234, .F. ) ;
#16 = AXIS2_PLACEMENT_3D ( 'NONE', #144, #247, #249 ) ;
#17 = LOCAL_TIME ( 17, 11, 16.00000000000000000, #184 ) ;
#18 = FACE_OUTER_BOUND ( 'NONE', #303, .T. ) ;
#19 = DIRECTION ( 'NONE',  ( 1.000000000000000000, 0.000000000000000000, 0.000000000000000000 ) ) ;
#20 = DIRECTION ( 'NONE',  ( -1.000000000000000000, -0.000000000000000000, -0.000000000000000000 ) ) ;
#21 = DIRECTION ( 'NONE',  ( 0.000000000000000000, 0.000000000000000000, 1.000000000000000000 ) ) ;
#22 = APPLICATION_CONTEXT ( 'configuration controlled 3d designs of mechanical parts and assemblies' ) ;
#23 = DIRECTION ( 'NONE',  ( 0.000000000000000000, 0.000000000000000000, 1.000000000000000000 ) ) ;
#24 = ADVANCED_BREP_SHAPE_REPRESENTATION ( 'Q-OZHWP-R2-10-248-M', ( #5, #335 ), #145 ) ;
#25 = DIRECTION ( 'NONE',  ( 1.000000000000000000, 0.000000000000000000, 0.000000000000000000 ) ) ;
#26 = AXIS2_PLACEMENT_3D ( 'NONE', #330, #305, #333 ) ;
#27 = APPROVAL ( #263, 'UNSPECIFIED' ) ;
#28 = DATE_AND_TIME ( #291, #199 ) ;
#29 = SECURITY_CLASSIFICATION_LEVEL ( 'unclassified' ) ;
#30 = CIRCLE ( 'NONE', #50, 5.000000000000001776 ) ;
#31 = SHAPE_DEFINITION_REPRESENTATION ( #122, #24 ) ;
#32 = ORIENTED_EDGE ( 'NONE', *, *, #1, .T. ) ;
#33 = EDGE_CURVE ( 'NONE', #61, #271, #118, .T. ) ;
#34 = VERTEX_POINT ( 'NONE', #299 ) ;
#35 = CARTESIAN_POINT ( 'NONE',  ( -3.000000000000000000, 1.555301434917138433E-15, -12.69999999999999929 ) ) ;
#36 = APPROVAL ( #129, 'UNSPECIFIED' ) ;
#37 = ORIENTED_EDGE ( 'NONE', *, *, #46, .T. ) ;
#38 = DIRECTION ( 'NONE',  ( -1.000000000000000000, -0.000000000000000000, -0.000000000000000000 ) ) ;
#39 = VERTEX_POINT ( 'NONE', #210 ) ;
#40 = DIRECTION ( 'NONE',  ( -1.000000000000000000, -0.000000000000000000, -0.000000000000000000 ) ) ;
#41 = EDGE_CURVE ( 'NONE', #61, #117, #30, .T. ) ;
#42 = ORIENTED_EDGE ( 'NONE', *, *, #252, .T. ) ;
#43 = DIRECTION ( 'NONE',  ( -1.000000000000000000, -0.000000000000000000, -0.000000000000000000 ) ) ;
#44 = PRODUCT_DEFINITION_FORMATION_WITH_SPECIFIED_SOURCE ( 'ANY', '', #150, .NOT_KNOWN. ) ;
#45 = DIRECTION ( 'NONE',  ( -1.000000000000000000, -0.000000000000000000, -0.000000000000000000 ) ) ;
#46 = EDGE_CURVE ( 'NONE', #117, #61, #128, .T. ) ;
#47 =( LENGTH_UNIT ( ) NAMED_UNIT ( * ) SI_UNIT ( .MILLI., .METRE. ) );
#48 = DIRECTION ( 'NONE',  ( 0.000000000000000000, 0.000000000000000000, 1.000000000000000000 ) ) ;
#49 = CARTESIAN_POINT ( 'NONE',  ( -1.614212418857619014, 0.000000000000000000, 12.69999999999999929 ) ) ;
#50 = AXIS2_PLACEMENT_3D ( 'NONE', #168, #272, #142 ) ;
#51 = LOCAL_TIME ( 17, 11, 16.00000000000000000, #208 ) ;
#52 = CC_DESIGN_DATE_AND_TIME_ASSIGNMENT ( #6, #58, ( #107 ) ) ;
#53 = ADVANCED_FACE ( 'NONE', ( #66 ), #72, .F. ) ;
#54 = APPROVAL_ROLE ( '' ) ;
#55 = AXIS2_PLACEMENT_3D ( 'NONE', #240, #196, #63 ) ;
#56 = ADVANCED_FACE ( 'NONE', ( #11 ), #170, .F. ) ;
#57 = PERSON_AND_ORGANIZATION ( #254, #285 ) ;
#58 = DATE_TIME_ROLE ( 'classification_date' ) ;
#59 = APPLICATION_CONTEXT ( 'configuration controlled 3d designs of mechanical parts and assemblies' ) ;
#60 = AXIS2_PLACEMENT_3D ( 'NONE', #153, #281, #332 ) ;
#61 = VERTEX_POINT ( 'NONE', #121 ) ;
#62 = EDGE_LOOP ( 'NONE', ( #192, #318, #300, #211 ) ) ;
#63 = DIRECTION ( 'NONE',  ( 0.000000000000000000, 0.000000000000000000, 1.000000000000000000 ) ) ;
#64 = CC_DESIGN_PERSON_AND_ORGANIZATION_ASSIGNMENT ( #130, #287, ( #107 ) ) ;
#65 = ORIENTED_EDGE ( 'NONE', *, *, #301, .T. ) ;
#66 = FACE_OUTER_BOUND ( 'NONE', #115, .T. ) ;
#67 = ORIENTED_EDGE ( 'NONE', *, *, #311, .F. ) ;
#68 = CARTESIAN_POINT ( 'NONE',  ( -1.614212418857619014, 0.000000000000000000, 0.000000000000000000 ) ) ;
#69 = ORIENTED_EDGE ( 'NONE', *, *, #41, .F. ) ;
#70 = CARTESIAN_POINT ( 'NONE',  ( 3.000000000000000000, 6.123233995736768255E-16, -5.000000000000001776 ) ) ;
#71 = CARTESIAN_POINT ( 'NONE',  ( -1.250000000000000222, 0.000000000000000000, 0.000000000000000000 ) ) ;
#72 = PLANE ( 'NONE',  #182 ) ;
#73 = CARTESIAN_POINT ( 'NONE',  ( 3.000000000000000000, 0.000000000000000000, 0.000000000000000000 ) ) ;
#74 = LINE ( 'NONE', #255, #218 ) ;
#75 = DIRECTION ( 'NONE',  ( -1.000000000000000000, -0.000000000000000000, -0.000000000000000000 ) ) ;
#76 = CARTESIAN_POINT ( 'NONE',  ( -1.614212418857619014, 0.000000000000000000, 0.000000000000000000 ) ) ;
#77 = DIRECTION ( 'NONE',  ( 0.000000000000000000, 0.000000000000000000, 1.000000000000000000 ) ) ;
#78 = PERSON_AND_ORGANIZATION ( #254, #285 ) ;
#79 = DIRECTION ( 'NONE',  ( 0.000000000000000000, 0.000000000000000000, 1.000000000000000000 ) ) ;
#80 = AXIS2_PLACEMENT_3D ( 'NONE', #95, #213, #266 ) ;
#81 = PERSON_AND_ORGANIZATION_ROLE ( 'design_owner' ) ;
#82 = MECHANICAL_CONTEXT ( 'NONE', #22, 'mechanical' ) ;
#83 = ORIENTED_EDGE ( 'NONE', *, *, #108, .T. ) ;
#84 = DATE_AND_TIME ( #230, #120 ) ;
#85 = ORIENTED_EDGE ( 'NONE', *, *, #238, .T. ) ;
#86 = CARTESIAN_POINT ( 'NONE',  ( 3.000000000000000000, 0.000000000000000000, 0.000000000000000000 ) ) ;
#87 = ORIENTED_EDGE ( 'NONE', *, *, #113, .T. ) ;
#88 = PLANE ( 'NONE',  #124 ) ;
#89 = ORIENTED_EDGE ( 'NONE', *, *, #293, .F. ) ;
#90 = DIRECTION ( 'NONE',  ( 0.000000000000000000, 0.000000000000000000, -1.000000000000000000 ) ) ;
#91 = AXIS2_PLACEMENT_3D ( 'NONE', #125, #308, #48 ) ;
#92 = EDGE_LOOP ( 'NONE', ( #136, #42, #164, #89 ) ) ;
#93 = CARTESIAN_POINT ( 'NONE',  ( -1.614212418857619014, 0.000000000000000000, 0.000000000000000000 ) ) ;
#94 = DIRECTION ( 'NONE',  ( 1.000000000000000000, 0.000000000000000000, 0.000000000000000000 ) ) ;
#95 = CARTESIAN_POINT ( 'NONE',  ( 3.000000000000000000, 12.69999999999999929, 0.000000000000000000 ) ) ;
#96 = EDGE_CURVE ( 'NONE', #328, #271, #248, .T. ) ;
#97 = CARTESIAN_POINT ( 'NONE',  ( -1.614212418857619014, 0.000000000000000000, 0.000000000000000000 ) ) ;
#98 = AXIS2_PLACEMENT_3D ( 'NONE', #73, #152, #127 ) ;
#99 = EDGE_CURVE ( 'NONE', #34, #161, #194, .T. ) ;
#100 = CARTESIAN_POINT ( 'NONE',  ( -1.614212418857619014, 0.000000000000000000, 0.000000000000000000 ) ) ;
#101 = DIRECTION ( 'NONE',  ( -1.000000000000000000, -0.000000000000000000, -0.000000000000000000 ) ) ;
#102 = FACE_OUTER_BOUND ( 'NONE', #219, .T. ) ;
#103 = VECTOR ( 'NONE', #20, 1000.000000000000000 ) ;
#104 = DIRECTION ( 'NONE',  ( 1.000000000000000000, 0.000000000000000000, 0.000000000000000000 ) ) ;
#105 = APPLICATION_PROTOCOL_DEFINITION ( 'international standard', 'config_control_design', 1994, #22 ) ;
#106 = AXIS2_PLACEMENT_3D ( 'NONE', #175, #197, #23 ) ;
#107 = SECURITY_CLASSIFICATION ( '', '', #29 ) ;
#108 = EDGE_CURVE ( 'NONE', #39, #7, #172, .T. ) ;
#109 = COORDINATED_UNIVERSAL_TIME_OFFSET ( 8, 0, .AHEAD. ) ;
#110 = PERSON_AND_ORGANIZATION ( #254, #285 ) ;
#111 = ORIENTED_EDGE ( 'NONE', *, *, #221, .F. ) ;
#112 = EDGE_CURVE ( 'NONE', #34, #265, #8, .T. ) ;
#113 = EDGE_CURVE ( 'NONE', #265, #186, #324, .T. ) ;
#114 = CYLINDRICAL_SURFACE ( 'NONE', #284, 5.000000000000000888 ) ;
#115 = EDGE_LOOP ( 'NONE', ( #267, #289 ) ) ;
#116 = CARTESIAN_POINT ( 'NONE',  ( -1.614212418857619014, 0.000000000000000000, 5.000000000000000888 ) ) ;
#117 = VERTEX_POINT ( 'NONE', #70 ) ;
#118 = LINE ( 'NONE', #116, #253 ) ;
#119 = ORIENTED_EDGE ( 'NONE', *, *, #96, .T. ) ;
#120 = LOCAL_TIME ( 17, 11, 16.00000000000000000, #185 ) ;
#121 = CARTESIAN_POINT ( 'NONE',  ( 3.000000000000000000, 0.000000000000000000, 5.000000000000001776 ) ) ;
#122 = PRODUCT_DEFINITION_SHAPE ( 'NONE', 'NONE',  #242 ) ;
#123 = CARTESIAN_POINT ( 'NONE',  ( 1.250000000000000444, 0.000000000000000000, 5.000000000000000000 ) ) ;
#124 = AXIS2_PLACEMENT_3D ( 'NONE', #191, #25, #222 ) ;
#125 = CARTESIAN_POINT ( 'NONE',  ( -3.000000000000000000, 0.000000000000000000, 0.000000000000000000 ) ) ;
#126 = LINE ( 'NONE', #179, #103 ) ;
#127 = DIRECTION ( 'NONE',  ( 0.000000000000000000, 0.000000000000000000, 1.000000000000000000 ) ) ;
#128 = CIRCLE ( 'NONE', #259, 5.000000000000001776 ) ;
#129 = APPROVAL_STATUS ( 'not_yet_approved' ) ;
#130 = PERSON_AND_ORGANIZATION ( #254, #285 ) ;
#131 = APPROVAL_DATE_TIME ( #28, #212 ) ;
#132 = AXIS2_PLACEMENT_3D ( 'NONE', #71, #94, #195 ) ;
#133 = CC_DESIGN_PERSON_AND_ORGANIZATION_ASSIGNMENT ( #57, #157, ( #44 ) ) ;
#134 = EDGE_LOOP ( 'NONE', ( #241, #111 ) ) ;
#135 = ADVANCED_FACE ( 'NONE', ( #189 ), #220, .F. ) ;
#136 = ORIENTED_EDGE ( 'NONE', *, *, #311, .T. ) ;
#137 = DIRECTION ( 'NONE',  ( 0.000000000000000000, 0.000000000000000000, 1.000000000000000000 ) ) ;
#138 = AXIS2_PLACEMENT_3D ( 'NONE', #100, #256, #176 ) ;
#139 = ORIENTED_EDGE ( 'NONE', *, *, #41, .T. ) ;
#140 = DIRECTION ( 'NONE',  ( -1.000000000000000000, -0.000000000000000000, -0.000000000000000000 ) ) ;
#141 = EDGE_LOOP ( 'NONE', ( #317, #87, #10, #246 ) ) ;
#142 = DIRECTION ( 'NONE',  ( 0.000000000000000000, 0.000000000000000000, 1.000000000000000000 ) ) ;
#143 = ORIENTED_EDGE ( 'NONE', *, *, #112, .F. ) ;
#144 = CARTESIAN_POINT ( 'NONE',  ( -1.250000000000000222, 5.000000000000000000, 0.000000000000000000 ) ) ;
#145 =( GEOMETRIC_REPRESENTATION_CONTEXT ( 3 ) GLOBAL_UNCERTAINTY_ASSIGNED_CONTEXT ( ( #148 ) ) GLOBAL_UNIT_ASSIGNED_CONTEXT ( ( #47, #257, #147 ) ) REPRESENTATION_CONTEXT ( 'NONE', 'WORKASPACE' ) );
#146 = DIRECTION ( 'NONE',  ( -1.000000000000000000, -0.000000000000000000, -0.000000000000000000 ) ) ;
#147 =( NAMED_UNIT ( * ) SI_UNIT ( $, .STERADIAN. ) SOLID_ANGLE_UNIT ( ) );
#148 = UNCERTAINTY_MEASURE_WITH_UNIT (LENGTH_MEASURE( 1.000000000000000082E-05 ), #47, 'distance_accuracy_value', 'NONE');
#149 = FACE_OUTER_BOUND ( 'NONE', #92, .T. ) ;
#150 = PRODUCT ( 'Q-OZHWP-R2-10-248-M', 'Q-OZHWP-R2-10-248-M', '', ( #82 ) ) ;
#151 = AXIS2_PLACEMENT_3D ( 'NONE', #174, #200, #21 ) ;
#152 = DIRECTION ( 'NONE',  ( -1.000000000000000000, -0.000000000000000000, -0.000000000000000000 ) ) ;
#153 = CARTESIAN_POINT ( 'NONE',  ( 3.000000000000000000, 0.000000000000000000, 0.000000000000000000 ) ) ;
#154 = CYLINDRICAL_SURFACE ( 'NONE', #280, 5.000000000000000888 ) ;
#155 = AXIS2_PLACEMENT_3D ( 'NONE', #14, #215, #270 ) ;
#156 = DATE_AND_TIME ( #315, #239 ) ;
#157 = PERSON_AND_ORGANIZATION_ROLE ( 'creator' ) ;
#158 = PERSON_AND_ORGANIZATION ( #254, #285 ) ;
#159 = CIRCLE ( 'NONE', #60, 12.69999999999999929 ) ;
#160 = CC_DESIGN_APPROVAL ( #36, ( #44 ) ) ;
#161 = VERTEX_POINT ( 'NONE', #319 ) ;
#162 = EDGE_LOOP ( 'NONE', ( #15, #69, #298, #296 ) ) ;
#163 = FACE_BOUND ( 'NONE', #134, .T. ) ;
#164 = ORIENTED_EDGE ( 'NONE', *, *, #108, .F. ) ;
#165 = DIRECTION ( 'NONE',  ( 0.000000000000000000, 0.000000000000000000, 1.000000000000000000 ) ) ;
#166 = CIRCLE ( 'NONE', #26, 12.69999999999999929 ) ;
#167 = APPROVAL_PERSON_ORGANIZATION ( #110, #36, #233 ) ;
#168 = CARTESIAN_POINT ( 'NONE',  ( 3.000000000000000000, 0.000000000000000000, 0.000000000000000000 ) ) ;
#169 = DIRECTION ( 'NONE',  ( -0.000000000000000000, 0.000000000000000000, 1.000000000000000000 ) ) ;
#170 = CYLINDRICAL_SURFACE ( 'NONE', #232, 5.000000000000000888 ) ;
#171 = CC_DESIGN_PERSON_AND_ORGANIZATION_ASSIGNMENT ( #262, #231, ( #44 ) ) ;
#172 = CIRCLE ( 'NONE', #258, 12.69999999999999929 ) ;
#173 = CC_DESIGN_APPROVAL ( #212, ( #242 ) ) ;
#174 = CARTESIAN_POINT ( 'NONE',  ( -1.614212418857619014, 0.000000000000000000, 0.000000000000000000 ) ) ;
#175 = CARTESIAN_POINT ( 'NONE',  ( -3.000000000000000000, 0.000000000000000000, 0.000000000000000000 ) ) ;
#176 = DIRECTION ( 'NONE',  ( 0.000000000000000000, 0.000000000000000000, 1.000000000000000000 ) ) ;
#177 = CYLINDRICAL_SURFACE ( 'NONE', #138, 12.69999999999999929 ) ;
#178 = ADVANCED_FACE ( 'NONE', ( #18, #329 ), #295, .F. ) ;
#179 = CARTESIAN_POINT ( 'NONE',  ( -1.614212418857619014, 1.555301434917138433E-15, -12.69999999999999929 ) ) ;
#180 = EDGE_CURVE ( 'NONE', #271, #328, #202, .T. ) ;
#181 = ADVANCED_FACE ( 'NONE', ( #163, #322 ), #88, .F. ) ;
#182 = AXIS2_PLACEMENT_3D ( 'NONE', #243, #245, #169 ) ;
#183 = COORDINATED_UNIVERSAL_TIME_OFFSET ( 8, 0, .AHEAD. ) ;
#184 = COORDINATED_UNIVERSAL_TIME_OFFSET ( 8, 0, .AHEAD. ) ;
#185 = COORDINATED_UNIVERSAL_TIME_OFFSET ( 8, 0, .AHEAD. ) ;
#186 = VERTEX_POINT ( 'NONE', #307 ) ;
#187 = CIRCLE ( 'NONE', #98, 12.69999999999999929 ) ;
#188 = APPROVAL_PERSON_ORGANIZATION ( #158, #27, #204 ) ;
#189 = FACE_OUTER_BOUND ( 'NONE', #190, .T. ) ;
#190 = EDGE_LOOP ( 'NONE', ( #143, #13 ) ) ;
#191 = CARTESIAN_POINT ( 'NONE',  ( -3.000000000000000000, 5.000000000000000000, 0.000000000000000000 ) ) ;
#192 = ORIENTED_EDGE ( 'NONE', *, *, #252, .F. ) ;
#193 = ORIENTED_EDGE ( 'NONE', *, *, #113, .F. ) ;
#194 = LINE ( 'NONE', #302, #223 ) ;
#195 = DIRECTION ( 'NONE',  ( 0.000000000000000000, 0.000000000000000000, -1.000000000000000000 ) ) ;
#196 = DIRECTION ( 'NONE',  ( -1.000000000000000000, -0.000000000000000000, -0.000000000000000000 ) ) ;
#197 = DIRECTION ( 'NONE',  ( -1.000000000000000000, -0.000000000000000000, -0.000000000000000000 ) ) ;
#198 = AXIS2_PLACEMENT_3D ( 'NONE', #9, #19, #90 ) ;
#199 = LOCAL_TIME ( 17, 11, 16.00000000000000000, #109 ) ;
#200 = DIRECTION ( 'NONE',  ( -1.000000000000000000, -0.000000000000000000, -0.000000000000000000 ) ) ;
#201 = CYLINDRICAL_SURFACE ( 'NONE', #276, 5.000000000000000888 ) ;
#202 = CIRCLE ( 'NONE', #55, 5.000000000000000000 ) ;
#203 = CARTESIAN_POINT ( 'NONE',  ( 3.000000000000000000, 0.000000000000000000, 12.69999999999999929 ) ) ;
#204 = APPROVAL_ROLE ( '' ) ;
#205 = PERSON_AND_ORGANIZATION ( #254, #285 ) ;
#206 = CC_DESIGN_PERSON_AND_ORGANIZATION_ASSIGNMENT ( #205, #81, ( #150 ) ) ;
#207 = DATE_TIME_ROLE ( 'creation_date' ) ;
#208 = COORDINATED_UNIVERSAL_TIME_OFFSET ( 8, 0, .AHEAD. ) ;
#209 = ORIENTED_EDGE ( 'NONE', *, *, #99, .T. ) ;
#210 = CARTESIAN_POINT ( 'NONE',  ( -3.000000000000000000, 0.000000000000000000, 12.69999999999999929 ) ) ;
#211 = ORIENTED_EDGE ( 'NONE', *, *, #238, .F. ) ;
#212 = APPROVAL ( #283, 'UNSPECIFIED' ) ;
#213 = DIRECTION ( 'NONE',  ( -1.000000000000000000, 0.000000000000000000, -0.000000000000000000 ) ) ;
#214 = EDGE_LOOP ( 'NONE', ( #83, #85 ) ) ;
#215 = DIRECTION ( 'NONE',  ( -1.000000000000000000, -0.000000000000000000, -0.000000000000000000 ) ) ;
#216 = ORIENTED_EDGE ( 'NONE', *, *, #33, .F. ) ;
#217 = DIRECTION ( 'NONE',  ( -1.000000000000000000, -0.000000000000000000, -0.000000000000000000 ) ) ;
#218 = VECTOR ( 'NONE', #75, 1000.000000000000000 ) ;
#219 = EDGE_LOOP ( 'NONE', ( #273, #236, #119, #216 ) ) ;
#220 = PLANE ( 'NONE',  #16 ) ;
#221 = EDGE_CURVE ( 'NONE', #186, #161, #314, .T. ) ;
#222 = DIRECTION ( 'NONE',  ( 0.000000000000000000, 0.000000000000000000, -1.000000000000000000 ) ) ;
#223 = VECTOR ( 'NONE', #45, 1000.000000000000000 ) ;
#224 = DESIGN_CONTEXT ( 'detailed design', #59, 'design' ) ;
#225 = CYLINDRICAL_SURFACE ( 'NONE', #151, 12.69999999999999929 ) ;
#226 = DIRECTION ( 'NONE',  ( 0.000000000000000000, 0.000000000000000000, 1.000000000000000000 ) ) ;
#227 = CARTESIAN_POINT ( 'NONE',  ( -1.250000000000000222, 6.123233995736767268E-16, -5.000000000000000888 ) ) ;
#228 = EDGE_CURVE ( 'NONE', #244, #323, #187, .T. ) ;
#229 = CIRCLE ( 'NONE', #132, 5.000000000000000888 ) ;
#230 = CALENDAR_DATE ( 2020, 22, 12 ) ;
#231 = PERSON_AND_ORGANIZATION_ROLE ( 'design_supplier' ) ;
#232 = AXIS2_PLACEMENT_3D ( 'NONE', #93, #38, #297 ) ;
#233 = APPROVAL_ROLE ( '' ) ;
#234 = EDGE_CURVE ( 'NONE', #117, #328, #74, .T. ) ;
#235 = CALENDAR_DATE ( 2020, 22, 12 ) ;
#236 = ORIENTED_EDGE ( 'NONE', *, *, #234, .T. ) ;
#237 = CC_DESIGN_PERSON_AND_ORGANIZATION_ASSIGNMENT ( #2, #4, ( #242 ) ) ;
#238 = EDGE_CURVE ( 'NONE', #7, #39, #166, .T. ) ;
#239 = LOCAL_TIME ( 17, 11, 16.00000000000000000, #183 ) ;
#240 = CARTESIAN_POINT ( 'NONE',  ( 1.250000000000000444, 0.000000000000000000, 0.000000000000000000 ) ) ;
#241 = ORIENTED_EDGE ( 'NONE', *, *, #301, .F. ) ;
#242 = PRODUCT_DEFINITION ( 'UNKNOWN', '', #44, #224 ) ;
#243 = CARTESIAN_POINT ( 'NONE',  ( 1.250000000000000222, 5.000000000000000000, 0.000000000000000000 ) ) ;
#244 = VERTEX_POINT ( 'NONE', #251 ) ;
#245 = DIRECTION ( 'NONE',  ( -1.000000000000000000, 0.000000000000000000, -0.000000000000000000 ) ) ;
#246 = ORIENTED_EDGE ( 'NONE', *, *, #99, .F. ) ;
#247 = DIRECTION ( 'NONE',  ( 1.000000000000000000, 0.000000000000000000, 0.000000000000000000 ) ) ;
#248 = CIRCLE ( 'NONE', #155, 5.000000000000000000 ) ;
#249 = DIRECTION ( 'NONE',  ( 0.000000000000000000, 0.000000000000000000, -1.000000000000000000 ) ) ;
#250 = ADVANCED_FACE ( 'NONE', ( #334 ), #225, .T. ) ;
#251 = CARTESIAN_POINT ( 'NONE',  ( 3.000000000000000000, 1.555301434917138433E-15, -12.69999999999999929 ) ) ;
#252 = EDGE_CURVE ( 'NONE', #244, #7, #126, .T. ) ;
#253 = VECTOR ( 'NONE', #140, 1000.000000000000000 ) ;
#254 = PERSON ( 'UNSPECIFIED', 'UNSPECIFIED', 'UNSPECIFIED', ('UNSPECIFIED'), ('UNSPECIFIED'), ('UNSPECIFIED') ) ;
#255 = CARTESIAN_POINT ( 'NONE',  ( -1.614212418857619014, 6.123233995736767268E-16, -5.000000000000000888 ) ) ;
#256 = DIRECTION ( 'NONE',  ( -1.000000000000000000, -0.000000000000000000, -0.000000000000000000 ) ) ;
#257 =( NAMED_UNIT ( * ) PLANE_ANGLE_UNIT ( ) SI_UNIT ( $, .RADIAN. ) );
#258 = AXIS2_PLACEMENT_3D ( 'NONE', #274, #217, #137 ) ;
#259 = AXIS2_PLACEMENT_3D ( 'NONE', #86, #40, #304 ) ;
#260 = ADVANCED_FACE ( 'NONE', ( #102 ), #154, .F. ) ;
#261 = CARTESIAN_POINT ( 'NONE',  ( 0.000000000000000000, 0.000000000000000000, 0.000000000000000000 ) ) ;
#262 = PERSON_AND_ORGANIZATION ( #254, #285 ) ;
#263 = APPROVAL_STATUS ( 'not_yet_approved' ) ;
#264 = CALENDAR_DATE ( 2020, 22, 12 ) ;
#265 = VERTEX_POINT ( 'NONE', #227 ) ;
#266 = DIRECTION ( 'NONE',  ( -0.000000000000000000, 0.000000000000000000, 1.000000000000000000 ) ) ;
#267 = ORIENTED_EDGE ( 'NONE', *, *, #180, .F. ) ;
#268 = CLOSED_SHELL ( 'NONE', ( #320, #312, #260, #53, #12, #56, #181, #250, #178, #135 ) ) ;
#269 = CC_DESIGN_APPROVAL ( #27, ( #107 ) ) ;
#270 = DIRECTION ( 'NONE',  ( 0.000000000000000000, 0.000000000000000000, 1.000000000000000000 ) ) ;
#271 = VERTEX_POINT ( 'NONE', #123 ) ;
#272 = DIRECTION ( 'NONE',  ( -1.000000000000000000, -0.000000000000000000, -0.000000000000000000 ) ) ;
#273 = ORIENTED_EDGE ( 'NONE', *, *, #46, .F. ) ;
#274 = CARTESIAN_POINT ( 'NONE',  ( -3.000000000000000000, 0.000000000000000000, 0.000000000000000000 ) ) ;
#275 = FACE_OUTER_BOUND ( 'NONE', #162, .T. ) ;
#276 = AXIS2_PLACEMENT_3D ( 'NONE', #76, #277, #226 ) ;
#277 = DIRECTION ( 'NONE',  ( -1.000000000000000000, -0.000000000000000000, -0.000000000000000000 ) ) ;
#278 = PRODUCT_RELATED_PRODUCT_CATEGORY ( 'detail', '', ( #150 ) ) ;
#279 = DIRECTION ( 'NONE',  ( -1.000000000000000000, -0.000000000000000000, -0.000000000000000000 ) ) ;
#280 = AXIS2_PLACEMENT_3D ( 'NONE', #97, #279, #77 ) ;
#281 = DIRECTION ( 'NONE',  ( -1.000000000000000000, -0.000000000000000000, -0.000000000000000000 ) ) ;
#282 = FACE_OUTER_BOUND ( 'NONE', #141, .T. ) ;
#283 = APPROVAL_STATUS ( 'not_yet_approved' ) ;
#284 = AXIS2_PLACEMENT_3D ( 'NONE', #68, #43, #165 ) ;
#285 = ORGANIZATION ( 'UNSPECIFIED', 'UNSPECIFIED', '' ) ;
#286 = APPROVAL_DATE_TIME ( #156, #36 ) ;
#287 = PERSON_AND_ORGANIZATION_ROLE ( 'classification_officer' ) ;
#288 = APPROVAL_DATE_TIME ( #316, #27 ) ;
#289 = ORIENTED_EDGE ( 'NONE', *, *, #96, .F. ) ;
#290 = VECTOR ( 'NONE', #101, 1000.000000000000000 ) ;
#291 = CALENDAR_DATE ( 2020, 22, 12 ) ;
#292 = CC_DESIGN_DATE_AND_TIME_ASSIGNMENT ( #84, #207, ( #242 ) ) ;
#293 = EDGE_CURVE ( 'NONE', #323, #39, #306, .T. ) ;
#294 = EDGE_LOOP ( 'NONE', ( #193, #32, #209, #65 ) ) ;
#295 = PLANE ( 'NONE',  #80 ) ;
#296 = ORIENTED_EDGE ( 'NONE', *, *, #180, .T. ) ;
#297 = DIRECTION ( 'NONE',  ( 0.000000000000000000, 0.000000000000000000, 1.000000000000000000 ) ) ;
#298 = ORIENTED_EDGE ( 'NONE', *, *, #33, .T. ) ;
#299 = CARTESIAN_POINT ( 'NONE',  ( -1.250000000000000222, 0.000000000000000000, 5.000000000000000888 ) ) ;
#300 = ORIENTED_EDGE ( 'NONE', *, *, #293, .T. ) ;
#301 = EDGE_CURVE ( 'NONE', #161, #186, #309, .T. ) ;
#302 = CARTESIAN_POINT ( 'NONE',  ( -1.614212418857619014, 0.000000000000000000, 5.000000000000000888 ) ) ;
#303 = EDGE_LOOP ( 'NONE', ( #67, #321 ) ) ;
#304 = DIRECTION ( 'NONE',  ( 0.000000000000000000, 0.000000000000000000, 1.000000000000000000 ) ) ;
#305 = DIRECTION ( 'NONE',  ( -1.000000000000000000, -0.000000000000000000, -0.000000000000000000 ) ) ;
#306 = LINE ( 'NONE', #49, #290 ) ;
#307 = CARTESIAN_POINT ( 'NONE',  ( -3.000000000000000000, 6.123233995736766282E-16, -5.000000000000000000 ) ) ;
#308 = DIRECTION ( 'NONE',  ( -1.000000000000000000, -0.000000000000000000, -0.000000000000000000 ) ) ;
#309 = CIRCLE ( 'NONE', #91, 5.000000000000000000 ) ;
#310 = CARTESIAN_POINT ( 'NONE',  ( 1.250000000000000444, 6.123233995736766282E-16, -5.000000000000000000 ) ) ;
#311 = EDGE_CURVE ( 'NONE', #323, #244, #159, .T. ) ;
#312 = ADVANCED_FACE ( 'NONE', ( #282 ), #201, .F. ) ;
#313 = APPLICATION_PROTOCOL_DEFINITION ( 'international standard', 'config_control_design', 1994, #59 ) ;
#314 = CIRCLE ( 'NONE', #106, 5.000000000000000000 ) ;
#315 = CALENDAR_DATE ( 2020, 22, 12 ) ;
#316 = DATE_AND_TIME ( #264, #51 ) ;
#317 = ORIENTED_EDGE ( 'NONE', *, *, #112, .T. ) ;
#318 = ORIENTED_EDGE ( 'NONE', *, *, #228, .T. ) ;
#319 = CARTESIAN_POINT ( 'NONE',  ( -3.000000000000000000, 0.000000000000000000, 5.000000000000000000 ) ) ;
#320 = ADVANCED_FACE ( 'NONE', ( #149 ), #177, .T. ) ;
#321 = ORIENTED_EDGE ( 'NONE', *, *, #228, .F. ) ;
#322 = FACE_OUTER_BOUND ( 'NONE', #214, .T. ) ;
#323 = VERTEX_POINT ( 'NONE', #203 ) ;
#324 = LINE ( 'NONE', #327, #326 ) ;
#325 = EDGE_LOOP ( 'NONE', ( #139, #37 ) ) ;
#326 = VECTOR ( 'NONE', #146, 1000.000000000000000 ) ;
#327 = CARTESIAN_POINT ( 'NONE',  ( -1.614212418857619014, 6.123233995736767268E-16, -5.000000000000000888 ) ) ;
#328 = VERTEX_POINT ( 'NONE', #310 ) ;
#329 = FACE_BOUND ( 'NONE', #325, .T. ) ;
#330 = CARTESIAN_POINT ( 'NONE',  ( -3.000000000000000000, 0.000000000000000000, 0.000000000000000000 ) ) ;
#331 = CC_DESIGN_SECURITY_CLASSIFICATION ( #107, ( #44 ) ) ;
#332 = DIRECTION ( 'NONE',  ( 0.000000000000000000, 0.000000000000000000, 1.000000000000000000 ) ) ;
#333 = DIRECTION ( 'NONE',  ( 0.000000000000000000, 0.000000000000000000, 1.000000000000000000 ) ) ;
#334 = FACE_OUTER_BOUND ( 'NONE', #62, .T. ) ;
#335 = AXIS2_PLACEMENT_3D ( 'NONE', #261, #79, #104 ) ;
ENDSEC;
END-ISO-10303-21;
